ISO-10303-21;
HEADER;
FILE_DESCRIPTION (( 'STEP AP203' ),
    '1' );
FILE_NAME ('BK7-LNPBSP-12.7-1064.STEP',
    '2020-12-22T04:11:19',
    ( '' ),
    ( '' ),
    'SwSTEP 2.0',
    'SolidWorks 2020',
    '' );
FILE_SCHEMA (( 'CONFIG_CONTROL_DESIGN' ));
ENDSEC;

DATA;
#1 = DIRECTION ( 'NONE',  ( 0.000000000000000000, 0.000000000000000000, 1.000000000000000000 ) ) ;
#2 = APPLICATION_PROTOCOL_DEFINITION ( 'international standard', 'config_control_design', 1994, #9 ) ;
#3 = DIRECTION ( 'NONE',  ( -1.000000000000000000, -0.000000000000000000, -0.000000000000000000 ) ) ;
#4 = PERSON_AND_ORGANIZATION ( #54, #161 ) ;
#5 = DIRECTION ( 'NONE',  ( -1.000000000000000000, -0.000000000000000000, -0.000000000000000000 ) ) ;
#6 = DATE_AND_TIME ( #47, #165 ) ;
#7 = CC_DESIGN_DATE_AND_TIME_ASSIGNMENT ( #23, #80, ( #66 ) ) ;
#8 = PRODUCT_DEFINITION_SHAPE ( 'NONE', 'NONE',  #66 ) ;
#9 = APPLICATION_CONTEXT ( 'configuration controlled 3d designs of mechanical parts and assemblies' ) ;
#10 = CIRCLE ( 'NONE', #57, 6.349999999999999645 ) ;
#11 = ADVANCED_FACE ( 'NONE', ( #129 ), #164, .F. ) ;
#12 = APPROVAL_PERSON_ORGANIZATION ( #148, #149, #102 ) ;
#13 = EDGE_LOOP ( 'NONE', ( #166, #28, #143, #60 ) ) ;
#14 = ORIENTED_EDGE ( 'NONE', *, *, #75, .T. ) ;
#15 = APPLICATION_CONTEXT ( 'configuration controlled 3d designs of mechanical parts and assemblies' ) ;
#16 = VERTEX_POINT ( 'NONE', #81 ) ;
#17 = CYLINDRICAL_SURFACE ( 'NONE', #110, 6.349999999999999645 ) ;
#18 = DATE_AND_TIME ( #96, #56 ) ;
#19 = APPROVAL_STATUS ( 'not_yet_approved' ) ;
#20 = CARTESIAN_POINT ( 'NONE',  ( -4.102566777143633281E-16, 0.000000000000000000, 6.349999999999999645 ) ) ;
#21 = SHAPE_DEFINITION_REPRESENTATION ( #8, #107 ) ;
#22 = AXIS2_PLACEMENT_3D ( 'NONE', #83, #58, #162 ) ;
#23 = DATE_AND_TIME ( #172, #141 ) ;
#24 = EDGE_CURVE ( 'NONE', #71, #70, #104, .T. ) ;
#25 = CLOSED_SHELL ( 'NONE', ( #69, #142, #11, #92 ) ) ;
#26 = LOCAL_TIME ( 12, 11, 19.00000000000000000, #116 ) ;
#27 = ORIENTED_EDGE ( 'NONE', *, *, #24, .T. ) ;
#28 = ORIENTED_EDGE ( 'NONE', *, *, #90, .T. ) ;
#29 = CARTESIAN_POINT ( 'NONE',  ( 0.000000000000000000, 0.000000000000000000, 0.000000000000000000 ) ) ;
#30 = FACE_OUTER_BOUND ( 'NONE', #13, .T. ) ;
#31 = CARTESIAN_POINT ( 'NONE',  ( -2.051283388571816641E-16, 6.349999999999999645, 0.000000000000000000 ) ) ;
#32 = COORDINATED_UNIVERSAL_TIME_OFFSET ( 8, 0, .AHEAD. ) ;
#33 = APPROVAL_ROLE ( '' ) ;
#34 = CALENDAR_DATE ( 2020, 22, 12 ) ;
#35 = CC_DESIGN_PERSON_AND_ORGANIZATION_ASSIGNMENT ( #65, #103, ( #66 ) ) ;
#36 = EDGE_CURVE ( 'NONE', #16, #71, #152, .T. ) ;
#37 = UNCERTAINTY_MEASURE_WITH_UNIT (LENGTH_MEASURE( 1.000000000000000082E-05 ), #45, 'distance_accuracy_value', 'NONE');
#38 = CC_DESIGN_PERSON_AND_ORGANIZATION_ASSIGNMENT ( #135, #62, ( #154 ) ) ;
#39 = PRODUCT ( 'BK7-LNPBSP-12.7-1064', 'BK7-LNPBSP-12.7-1064', '', ( #123 ) ) ;
#40 = DIRECTION ( 'NONE',  ( -1.000000000000000000, -0.000000000000000000, -0.000000000000000000 ) ) ;
#41 = ORIENTED_EDGE ( 'NONE', *, *, #75, .F. ) ;
#42 = AXIS2_PLACEMENT_3D ( 'NONE', #29, #3, #1 ) ;
#43 = DIRECTION ( 'NONE',  ( -0.000000000000000000, 0.000000000000000000, 1.000000000000000000 ) ) ;
#44 = CC_DESIGN_PERSON_AND_ORGANIZATION_ASSIGNMENT ( #157, #159, ( #150 ) ) ;
#45 =( LENGTH_UNIT ( ) NAMED_UNIT ( * ) SI_UNIT ( .MILLI., .METRE. ) );
#46 = DIRECTION ( 'NONE',  ( -1.000000000000000000, -0.000000000000000000, -0.000000000000000000 ) ) ;
#47 = CALENDAR_DATE ( 2020, 22, 12 ) ;
#48 = CARTESIAN_POINT ( 'NONE',  ( 2.999999999999999112, 0.000000000000000000, 0.000000000000000000 ) ) ;
#49 = PERSON_AND_ORGANIZATION_ROLE ( 'design_supplier' ) ;
#50 = LOCAL_TIME ( 12, 11, 19.00000000000000000, #76 ) ;
#51 = CARTESIAN_POINT ( 'NONE',  ( 2.999999999999999112, 0.000000000000000000, 6.349999999999999645 ) ) ;
#52 = APPROVAL_DATE_TIME ( #18, #145 ) ;
#53 = PERSON_AND_ORGANIZATION_ROLE ( 'design_owner' ) ;
#54 = PERSON ( 'UNSPECIFIED', 'UNSPECIFIED', 'UNSPECIFIED', ('UNSPECIFIED'), ('UNSPECIFIED'), ('UNSPECIFIED') ) ;
#55 = MANIFOLD_SOLID_BREP ( 'Ðý×', #25 ) ;
#56 = LOCAL_TIME ( 12, 11, 19.00000000000000000, #167 ) ;
#57 = AXIS2_PLACEMENT_3D ( 'NONE', #48, #46, #97 ) ;
#58 = DIRECTION ( 'NONE',  ( -1.000000000000000000, -0.000000000000000000, -0.000000000000000000 ) ) ;
#59 = APPROVAL_PERSON_ORGANIZATION ( #4, #145, #140 ) ;
#60 = ORIENTED_EDGE ( 'NONE', *, *, #24, .F. ) ;
#61 = CARTESIAN_POINT ( 'NONE',  ( 2.999999999999999112, 0.000000000000000000, 0.000000000000000000 ) ) ;
#62 = PERSON_AND_ORGANIZATION_ROLE ( 'classification_officer' ) ;
#63 = DIRECTION ( 'NONE',  ( -1.000000000000000000, -0.000000000000000000, -0.000000000000000000 ) ) ;
#64 = PLANE ( 'NONE',  #136 ) ;
#65 = PERSON_AND_ORGANIZATION ( #54, #161 ) ;
#66 = PRODUCT_DEFINITION ( 'UNKNOWN', '', #150, #127 ) ;
#67 = CC_DESIGN_PERSON_AND_ORGANIZATION_ASSIGNMENT ( #78, #49, ( #150 ) ) ;
#68 = APPROVAL_PERSON_ORGANIZATION ( #79, #138, #33 ) ;
#69 = ADVANCED_FACE ( 'NONE', ( #95 ), #153, .T. ) ;
#70 = VERTEX_POINT ( 'NONE', #20 ) ;
#71 = VERTEX_POINT ( 'NONE', #99 ) ;
#72 =( NAMED_UNIT ( * ) PLANE_ANGLE_UNIT ( ) SI_UNIT ( $, .RADIAN. ) );
#73 = CARTESIAN_POINT ( 'NONE',  ( 0.000000000000000000, 0.000000000000000000, 0.000000000000000000 ) ) ;
#74 = APPLICATION_PROTOCOL_DEFINITION ( 'international standard', 'config_control_design', 1994, #15 ) ;
#75 = EDGE_CURVE ( 'NONE', #160, #16, #146, .T. ) ;
#76 = COORDINATED_UNIVERSAL_TIME_OFFSET ( 8, 0, .AHEAD. ) ;
#77 = CARTESIAN_POINT ( 'NONE',  ( 0.000000000000000000, 0.000000000000000000, 6.349999999999999645 ) ) ;
#78 = PERSON_AND_ORGANIZATION ( #54, #161 ) ;
#79 = PERSON_AND_ORGANIZATION ( #54, #161 ) ;
#80 = DATE_TIME_ROLE ( 'creation_date' ) ;
#81 = CARTESIAN_POINT ( 'NONE',  ( 2.999999999999999112, 7.776507174585692163E-16, -6.349999999999999645 ) ) ;
#82 = VECTOR ( 'NONE', #5, 1000.000000000000000 ) ;
#83 = CARTESIAN_POINT ( 'NONE',  ( -4.102566777143633281E-16, 0.000000000000000000, 0.000000000000000000 ) ) ;
#84 = ORIENTED_EDGE ( 'NONE', *, *, #90, .F. ) ;
#85 = APPROVAL_STATUS ( 'not_yet_approved' ) ;
#86 = DIRECTION ( 'NONE',  ( 0.000000000000000000, 0.000000000000000000, 1.000000000000000000 ) ) ;
#87 = CC_DESIGN_APPROVAL ( #138, ( #66 ) ) ;
#88 = CALENDAR_DATE ( 2020, 22, 12 ) ;
#89 = APPROVAL_DATE_TIME ( #6, #138 ) ;
#90 = EDGE_CURVE ( 'NONE', #16, #160, #10, .T. ) ;
#91 = APPROVAL_STATUS ( 'not_yet_approved' ) ;
#92 = ADVANCED_FACE ( 'NONE', ( #134 ), #64, .F. ) ;
#93 = EDGE_LOOP ( 'NONE', ( #41, #84 ) ) ;
#94 = ORIENTED_EDGE ( 'NONE', *, *, #36, .T. ) ;
#95 = FACE_OUTER_BOUND ( 'NONE', #109, .T. ) ;
#96 = CALENDAR_DATE ( 2020, 22, 12 ) ;
#97 = DIRECTION ( 'NONE',  ( 0.000000000000000000, 0.000000000000000000, 1.000000000000000000 ) ) ;
#98 = DATE_TIME_ROLE ( 'classification_date' ) ;
#99 = CARTESIAN_POINT ( 'NONE',  ( -4.102566777143633281E-16, 7.776507174585692163E-16, -6.349999999999999645 ) ) ;
#100 = DIRECTION ( 'NONE',  ( 0.000000000000000000, 0.000000000000000000, 1.000000000000000000 ) ) ;
#101 = APPROVAL_DATE_TIME ( #133, #149 ) ;
#102 = APPROVAL_ROLE ( '' ) ;
#103 = PERSON_AND_ORGANIZATION_ROLE ( 'creator' ) ;
#104 = CIRCLE ( 'NONE', #22, 6.349999999999999645 ) ;
#105 = AXIS2_PLACEMENT_3D ( 'NONE', #118, #139, #119 ) ;
#106 = AXIS2_PLACEMENT_3D ( 'NONE', #147, #170, #100 ) ;
#107 = ADVANCED_BREP_SHAPE_REPRESENTATION ( 'BK7-LNPBSP-12.7-1064', ( #55, #105 ), #175 ) ;
#108 = CARTESIAN_POINT ( 'NONE',  ( 2.999999999999999556, 6.349999999999999645, 0.000000000000000000 ) ) ;
#109 = EDGE_LOOP ( 'NONE', ( #14, #94, #156, #151 ) ) ;
#110 = AXIS2_PLACEMENT_3D ( 'NONE', #73, #117, #131 ) ;
#111 = DIRECTION ( 'NONE',  ( -1.000000000000000000, 0.000000000000000000, -0.000000000000000000 ) ) ;
#112 = CC_DESIGN_SECURITY_CLASSIFICATION ( #154, ( #150 ) ) ;
#113 =( NAMED_UNIT ( * ) SI_UNIT ( $, .STERADIAN. ) SOLID_ANGLE_UNIT ( ) );
#114 = DIRECTION ( 'NONE',  ( 1.000000000000000000, 0.000000000000000000, 0.000000000000000000 ) ) ;
#115 = PRODUCT_RELATED_PRODUCT_CATEGORY ( 'detail', '', ( #39 ) ) ;
#116 = COORDINATED_UNIVERSAL_TIME_OFFSET ( 8, 0, .AHEAD. ) ;
#117 = DIRECTION ( 'NONE',  ( -1.000000000000000000, -0.000000000000000000, -0.000000000000000000 ) ) ;
#118 = CARTESIAN_POINT ( 'NONE',  ( 0.000000000000000000, 0.000000000000000000, 0.000000000000000000 ) ) ;
#119 = DIRECTION ( 'NONE',  ( 1.000000000000000000, 0.000000000000000000, 0.000000000000000000 ) ) ;
#120 = AXIS2_PLACEMENT_3D ( 'NONE', #61, #63, #86 ) ;
#121 = CC_DESIGN_APPROVAL ( #149, ( #154 ) ) ;
#122 = SECURITY_CLASSIFICATION_LEVEL ( 'unclassified' ) ;
#123 = MECHANICAL_CONTEXT ( 'NONE', #15, 'mechanical' ) ;
#124 = CIRCLE ( 'NONE', #106, 6.349999999999999645 ) ;
#125 = VECTOR ( 'NONE', #40, 1000.000000000000000 ) ;
#126 = EDGE_CURVE ( 'NONE', #160, #70, #158, .T. ) ;
#127 = DESIGN_CONTEXT ( 'detailed design', #9, 'design' ) ;
#128 = ORIENTED_EDGE ( 'NONE', *, *, #155, .T. ) ;
#129 = FACE_OUTER_BOUND ( 'NONE', #93, .T. ) ;
#130 = CC_DESIGN_PERSON_AND_ORGANIZATION_ASSIGNMENT ( #171, #53, ( #39 ) ) ;
#131 = DIRECTION ( 'NONE',  ( 0.000000000000000000, 0.000000000000000000, 1.000000000000000000 ) ) ;
#132 = COORDINATED_UNIVERSAL_TIME_OFFSET ( 8, 0, .AHEAD. ) ;
#133 = DATE_AND_TIME ( #34, #50 ) ;
#134 = FACE_OUTER_BOUND ( 'NONE', #144, .T. ) ;
#135 = PERSON_AND_ORGANIZATION ( #54, #161 ) ;
#136 = AXIS2_PLACEMENT_3D ( 'NONE', #31, #114, #168 ) ;
#137 = CC_DESIGN_APPROVAL ( #145, ( #150 ) ) ;
#138 = APPROVAL ( #91, 'UNSPECIFIED' ) ;
#139 = DIRECTION ( 'NONE',  ( 0.000000000000000000, 0.000000000000000000, 1.000000000000000000 ) ) ;
#140 = APPROVAL_ROLE ( '' ) ;
#141 = LOCAL_TIME ( 12, 11, 19.00000000000000000, #132 ) ;
#142 = ADVANCED_FACE ( 'NONE', ( #30 ), #17, .T. ) ;
#143 = ORIENTED_EDGE ( 'NONE', *, *, #126, .T. ) ;
#144 = EDGE_LOOP ( 'NONE', ( #128, #27 ) ) ;
#145 = APPROVAL ( #85, 'UNSPECIFIED' ) ;
#146 = CIRCLE ( 'NONE', #120, 6.349999999999999645 ) ;
#147 = CARTESIAN_POINT ( 'NONE',  ( -4.102566777143633281E-16, 0.000000000000000000, 0.000000000000000000 ) ) ;
#148 = PERSON_AND_ORGANIZATION ( #54, #161 ) ;
#149 = APPROVAL ( #19, 'UNSPECIFIED' ) ;
#150 = PRODUCT_DEFINITION_FORMATION_WITH_SPECIFIED_SOURCE ( 'ANY', '', #39, .NOT_KNOWN. ) ;
#151 = ORIENTED_EDGE ( 'NONE', *, *, #126, .F. ) ;
#152 = LINE ( 'NONE', #163, #125 ) ;
#153 = CYLINDRICAL_SURFACE ( 'NONE', #42, 6.349999999999999645 ) ;
#154 = SECURITY_CLASSIFICATION ( '', '', #122 ) ;
#155 = EDGE_CURVE ( 'NONE', #70, #71, #124, .T. ) ;
#156 = ORIENTED_EDGE ( 'NONE', *, *, #155, .F. ) ;
#157 = PERSON_AND_ORGANIZATION ( #54, #161 ) ;
#158 = LINE ( 'NONE', #77, #82 ) ;
#159 = PERSON_AND_ORGANIZATION_ROLE ( 'creator' ) ;
#160 = VERTEX_POINT ( 'NONE', #51 ) ;
#161 = ORGANIZATION ( 'UNSPECIFIED', 'UNSPECIFIED', '' ) ;
#162 = DIRECTION ( 'NONE',  ( 0.000000000000000000, 0.000000000000000000, 1.000000000000000000 ) ) ;
#163 = CARTESIAN_POINT ( 'NONE',  ( 0.000000000000000000, 7.776507174585692163E-16, -6.349999999999999645 ) ) ;
#164 = PLANE ( 'NONE',  #173 ) ;
#165 = LOCAL_TIME ( 12, 11, 19.00000000000000000, #32 ) ;
#166 = ORIENTED_EDGE ( 'NONE', *, *, #36, .F. ) ;
#167 = COORDINATED_UNIVERSAL_TIME_OFFSET ( 8, 0, .AHEAD. ) ;
#168 = DIRECTION ( 'NONE',  ( 0.000000000000000000, 0.000000000000000000, -1.000000000000000000 ) ) ;
#169 = DATE_AND_TIME ( #88, #26 ) ;
#170 = DIRECTION ( 'NONE',  ( -1.000000000000000000, -0.000000000000000000, -0.000000000000000000 ) ) ;
#171 = PERSON_AND_ORGANIZATION ( #54, #161 ) ;
#172 = CALENDAR_DATE ( 2020, 22, 12 ) ;
#173 = AXIS2_PLACEMENT_3D ( 'NONE', #108, #111, #43 ) ;
#174 = CC_DESIGN_DATE_AND_TIME_ASSIGNMENT ( #169, #98, ( #154 ) ) ;
#175 =( GEOMETRIC_REPRESENTATION_CONTEXT ( 3 ) GLOBAL_UNCERTAINTY_ASSIGNED_CONTEXT ( ( #37 ) ) GLOBAL_UNIT_ASSIGNED_CONTEXT ( ( #45, #72, #113 ) ) REPRESENTATION_CONTEXT ( 'NONE', 'WORKASPACE' ) );
ENDSEC;
END-ISO-10303-21;
